Lead Intro

Lead Intro

Postby b weird » Wed May 03, 2006 3:39 pm

E|--16b16p14--15--14-------------
B|--------------------15---------
G|------------------------14-----
D|-------------------------------
A|-------------------------------
E|------------------------------- E|-----------------------------------
B|--17b17--17--17--------------------
G|-----------------16b16-------------
D|------------------------14--16-----
A|-----------------------------------
E|----------------------------------- E|-------------------------------------
B|--14--12------10---------------------
G|----------12------11--11--11--12-----
D|-------------------------------------
A|-------------------------------------
E|------------------------------------- E|----------------------------------
B|----------------------------------
G|--11--12--9------9--11--10--9-----
D|-------------11-------------------
A|----------------------------------
E|---------------------------------- E|-------------------------------------
B|-------------------------------------
G|---------------------------11--9-----
D|--9\11--11/9--7--9--9--11------------
A|-------------------------------------
E|------------------------------------- E|----------------------------------
B|----------------------------------
G|---------------------9--11--9v----
D|--11--9--9--7---------------------
A|---------------9--7---------------
E|---------------------------------- E|--------------------------------
B|---------9--10v-----------------
G|--9--11----------11-------------
D|---------------------11/12------
A|--------------------------------
E|--------------------------------
E|----------------------------
B|------10--12--10--12\14-----
G|--11------------------------
D|----------------------------
A|----------------------------
E|----------------------------

There it is! Peace
User avatar
b weird
Senior Member
 
Posts: 713
Joined: Sat Apr 01, 2006 8:09 am

Re: Lead Intro

Postby waldo041 » Wed May 03, 2006 7:01 pm

b weird wrote:E|--16b16p14--15--14-------------
B|--------------------15---------
G|------------------------14-----
D|-------------------------------
A|-------------------------------
E|-------------------------------

E|-----------------------------------
B|--17b17--17--17--------------------
G|-----------------16b16-------------
D|------------------------14--16-----
A|-----------------------------------
E|-----------------------------------

E|-------------------------------------
B|--14--12------10---------------------
G|----------12------11--11--11--12-----
D|-------------------------------------
A|-------------------------------------
E|-------------------------------------

E|----------------------------------
B|----------------------------------
G|--11--12--9------9--11--10--9-----
D|-------------11-------------------
A|----------------------------------
E|----------------------------------

E|-------------------------------------
B|-------------------------------------
G|---------------------------11--9-----
D|--9\11--11/9--7--9--9--11------------
A|-------------------------------------
E|-------------------------------------

E|----------------------------------
B|----------------------------------
G|---------------------9--11--9v----
D|--11--9--9--7---------------------
A|---------------9--7---------------
E|----------------------------------

E|--------------------------------
B|---------9--10v-----------------
G|--9--11----------11-------------
D|---------------------11/12------
A|--------------------------------
E|--------------------------------


E|----------------------------
B|------10--12--10--12\14-----
G|--11------------------------
D|----------------------------
A|----------------------------
E|----------------------------

There it is! Peace
"Tone is in the instruments. Technique in the hands. Do what you will." ~ quote from some guy at the TGP forum
User avatar
waldo041
Senior Member
 
Posts: 2812
Joined: Thu May 19, 2005 10:58 am
Location: Indiana

Postby tigerstrat » Thu May 04, 2006 10:58 am

Looks like a particular version from somewhere- what's the date?
User avatar
tigerstrat
Senior Member
 
Posts: 4628
Joined: Wed Nov 30, 2005 1:20 pm
Location: Portland,OR

Postby b weird » Thu May 04, 2006 11:39 am

I tabbed the intro from the album. Note: On the Dead Set album there is no lead intro just a rhythm intro. Peace.
User avatar
b weird
Senior Member
 
Posts: 713
Joined: Sat Apr 01, 2006 8:09 am

Postby b weird » Thu May 04, 2006 11:40 am

Sorry I forgot to mention the album name. I tabbed the intro from Blues For Allah.
User avatar
b weird
Senior Member
 
Posts: 713
Joined: Sat Apr 01, 2006 8:09 am


Return to Franklin's Tower

Who is online

Users browsing this forum: No registered users and 0 guests