My version of Althea

My version of Althea

Postby darksun » Sat Jul 26, 2008 2:43 pm

I was wondering if anybody could critique my version of Althea's intro for me... and maybe give me a few pointers on where it could be improved?

(please forgive my tab skills)

E----------------------------------------0---
B--------------3------2--3--2------------2---
G----------------4----2--2--2--0h1--1-1--2---
D------------4-----4----------------2-2--2---
A------0-1-2-----------------------------0---
E--1s4---------------------------------------


E-----------------------------------------------
B--------------3------2--2--2-------------------
G----------------4----2--3--2--0h1---1-2--1-1---
D------------4-----4---------------2---0----2---
A------0-1-2------------------------------------
E--1s4------------------------------------------

ty
darksun
Rosebud
Rosebud
 
Posts: 36
Joined: Wed Jul 16, 2008 10:35 am

Postby Billbbill » Sat Jul 26, 2008 9:35 pm

Very close to my take darksun, in the vid instruction here.

http://bickslicks.rukind.org/Althea/Bil ... index.html

Looks like I just plop a bass note or two here or there and I end the phrase a little differently.
User avatar
Billbbill
Senior Member
 
Posts: 1780
Joined: Wed Aug 18, 2004 6:44 pm
Location: Southern Westchester NY

Re: My version of Althea

Postby enardi » Tue Jul 07, 2009 10:35 pm

I play the intro like this..

e------------------------------------------------------------------------------------------------
B-------------------------3-------------2-----3---2-----------------------2--------------------------
G------------------------------4--------2-------------1h2----1-----------2----------------------------
D--------------------4------------4-----2--------------------------2------2--------------------------
A-------0--1--2----------------------2--------------------------------------------------------------
E-1s4-----------------------------------------------------------------------------------------------

e---------------------------------------------------------------------------------------------------
B-------------------------3---------------------2----3----2--------------------------------------------
G------------------------------4----------------2--------------1h2--1---------0h1-----------------------
D-------------------4---------------4-----------2-----------------------2--------------2-----------------
A--------0 1 2---------------------------2-----------------------------------------------------------------
E-1s4---------------------------------------------------------------------------------------------------


it works well if your not interested in fingerpicking or even truly flatpicking the main riff. It isnt the way jerry palyed it but it is effective
enardi
Keith
Keith
 
Posts: 64
Joined: Tue Jul 07, 2009 9:47 pm


Return to Althea

Who is online

Users browsing this forum: No registered users and 0 guests