Weir's part

Weir's part

Postby Dozin » Sun Jun 29, 2008 7:33 am

Playin’ In The Band
|-Weir------------------------------------------------|
|-----3-------3------3-----3\2/3--3-------------------|
|---2--2----2--2---2---2------------------------------|
|-0---------------0---------------------------------0-|
|----------0----------------------3-----2---0h2--3----|
|-----------------------------------------------------|

|-Verse--------------------------------------|
|--------------------------------------------|
|--------------------------------------------|
|------7-7--9-9--7---7-7--9-9--7-------------|
|------5-5--5-5--5---5-5--5-5--5--7-7--------|
|---------------------------------5-5--------|

Verse 1
Some folks trust to reason others trust to might,
I don't trust to nothin', but I know it comes out right.
Say it once again now, Whoa, I hope you'll understand
When it's done and over, Lord, a man is just a man.
Playin', playin' in the band. Daybreak, daybreak on the land.

Lead
|--------------------------------------------------------|
|--------------------------------------------------------|
|-----------------5--------------------------------------|
|-----5---7trill-----5--7trill--5--5--7trill--5--7-------|
|-----------------------------------------------------5--|
|--------------------------------------------------------|
4x

Verse 2
Some folks look for answers others look for fights,
Some folks up in treetops just a looking for their kites.
Whoa, I can tell your future just look what's in your hand,
But I can't stop for nothin' I'm just playing in the band.
Playin', playin' in the band. Daybreak, daybreak on the land.

|-------------------------------------------------|
|---5--5--5--5--5--5--5--4/5--5--5--5--3--3--5----|
|---6--6--6--4--6--4--6--5/6--6--4--6--4--2--6----|
|---7--7--7--6--7--6--7--6/7--7--6--7--5--4--7----|
|-------------------------------------------------|
|---A--------E--A--E--A--A-A--E-A-G--D--A (x2)

|--Outro----------------------------------|
|----------7-------------7---6---7--8-----|
|------/8-----9----6-----7---7---7--7-----|
|------------------------9---9---7--8---7-|
|---------------------------------------5-|
|-A----------------------Bm--G---D--Gm--D-|

Verse 3
Standin' on a tower world at my command
You just keep a turnin' while I'm playing in the band.
And if a man among you got no sin upon his hand
Let him cast a stone at me for playing in the band.
Playin', playin' in the band. Daybreak, daybreak on the land.

Jam in G7
Last edited by Dozin on Thu Jul 03, 2008 7:45 pm, edited 2 times in total.
Image
"If you get confused,...
Listen to the music play"
User avatar
Dozin
Senior Member
 
Posts: 1012
Joined: Thu May 20, 2004 5:27 am
Location: New Hampshire

Postby strumminsix » Mon Jun 30, 2008 5:30 am

Well done again bro....

One addition, timing.

The whole song keeps it tightly in 10.

Even the jams and especially the segues.

Think of the end jam:

|---A--------E--A--E--A--A-A--E-A-G--D--A (x2)

Code: Select all
  1   2   3   4   5   6   7   8   9   10
|-A---------------Bm---G-----D---Gm---D-


Also, how are you getting to the G7?
User avatar
strumminsix
Senior Member
 
Posts: 6647
Joined: Tue Apr 05, 2005 8:13 am
Location: Chicago


Return to Playin' in the Band

Who is online

Users browsing this forum: No registered users and 0 guests