Verse Riff

Verse Riff

Postby motto » Sat Jun 05, 2004 10:26 pm

This is an interpretation of the verse riff. It is similar to the posted but a little more involved note-wise.

Formatting doesn't work really well so the words should be sung right after the individual notes end and the chords begin.

\=slide

Riff1
Fm
|------------------x----
|------------------x----
|-------5----------5----
|-----5--8-6-5--- 6----
|-3\8----------8--8----
|------------------x----
Paradise waits....


Riff2
Cm
|----------------3------
|----------------4-------
|-----5----------5---------
|---6--8-5------5----------
|-8--------6---- 3----------
|------------8---x-----------
On the crest....

The chords don't line up but you get the idea. This is just good to play so you can go Riff1-Fm-Riff2-Cm-Fm and use Fm 1st position for the last chord (and then play the last notes - in the verse part - that are posted in Ed's tab but shifted up to the Fm 1st position), and then it is easy to get to the 3(C) note to slide again.

Hope this makes some sense. Tabbing like this sucks.
motto
Vince
Vince
 
Posts: 8
Joined: Sat Jun 05, 2004 9:50 pm

Return to Help On The Way

Who is online

Users browsing this forum: No registered users and 0 guests