Deep Elem Blues Guitar Tab

Deep Elem Blues Guitar Tab

Postby 777GMoney » Tue Feb 20, 2007 9:35 pm

Deep Elem Blues Reckoning Version


E7
E|-------------------------------
B|-------------------------------
G|-------------------------------
D|-------------2--2--0-----------
A|----------2-----------4--2-----
E|--0--0/4----------------------- 3 Times Then...

E|------------------------------
B|------------------------------
G|------------------------------
D|-------------2--0-------------
A|----------2--------0----------
E|--0--0/4--------------3p0-----


A7
E|-------------------------------------------------------------------
B|-------------------------------------------------------------------
G|--------------2------------------------------------0h1p0-----------
D|--------------2-------2-----5--4--2-------2---------------0--2-----
A|--------------2--0/4-----0-----------0h3-----3--0------------------
E|--0--2--3--4-------------------------------------------------------

B7 E7
E|-----------2------------------------------------------
B|------------------------------------------------------
G|-----------2-------------------------0h1--0-----------
D|-----------1----------------2----------------0--2-----
A|-----0--1--2--2--0------------------------------------
E|--3-----------------3--0h3-----3--0-------------------
http://www.guitartabcreator.com
777GMoney
rukind?
rukind?
 
Posts: 6
Joined: Tue Feb 20, 2007 9:24 pm

Return to Deep Elem Blues

Who is online

Users browsing this forum: No registered users and 0 guests