brown eyed women

brown eyed women

Postby darkstar1 » Sat Mar 31, 2012 9:39 am

Does anyone know the intro tab to bew on the live out of your skull c.d. ? Haven't been able to figure it out. Thanks
darkstar1
welcome
welcome
 
Posts: 1
Joined: Sat Mar 31, 2012 9:32 am

Re: brown eyed women

Postby Pete B. » Sat Mar 31, 2012 11:16 am

Found this and that so far...
http://www.allmusic.com/album/out-of-yo ... l-r1346104
http://archive.org/details/gd1977-05-09 ... 77462.shnf

Sounds like he does a little walk up based out of the C#m chord shape at the 9th fret, then quickly transitions to playing out of the E chord position at the 7th fret (with just his index finger covering the top 4 strings at the 7th fret), while he plays the licks with his ring finger.
I'll take a quick stab at it...

[EDIT] Woops I think I just tabbed the wrong intro...
This is from the night before:
http://www.youtube.com/watch?v=dxq5tvJH6tA
'sorry bout that :?

Break it down to 4 licks:
First lick:
E
B
G
D--------9--------9--10--11--
A--11-------11---------------
E

Second lick (the first two notes area a g-string whole step bend up, then release the bend):
E
B
G--11b13--13r11--9-------------9---------------------------------
D------------------------11--9------------11--9--------9--11--9---
A---------------------------------------------------11---------------
E

Lick Three:
E
B
G
D----------9-----9----11p9----9------------9--------------
A---9/11----11------------11--------9/11----11\9---7---
E

Fourth lick:
E
B
G
D
A--11\9--7--------7----7---9/11--
E------------9--------9--------------
User avatar
Pete B.
Senior Member
 
Posts: 1783
Joined: Mon Jul 23, 2007 9:59 am
Location: Portland, Oregon


Return to Brown-Eyed Women

Who is online

Users browsing this forum: No registered users and 0 guests