Page 1 of 2

Help with the interlude

PostPosted: Tue May 09, 2006 9:50 pm
by strumminsix
I see the tabs posted but when I try to play along with the tune it doesn't seem right.

Has anyone nailed this part who can help?

Re: Help with the interlude

PostPosted: Wed May 10, 2006 8:21 am
by shakedown_04092
strumminsix wrote:I see the tabs posted but when I try to play along with the tune it doesn't seem right.

Has anyone nailed this part who can help?


Oh man, I hope someone here has this figured out because I run into the same problem. This has been a tune I've wanted to play for a while, too. It's such a weird progression in terms of chords/timing....

PostPosted: Wed May 10, 2006 8:47 am
by strumminsix
I've got the start and end...

Start: FFFFFFF G CCC


END: FFFFF GG G G C


It actually works by playing with D, Dm, Dsus2, Dsus4 in the middle but I know it is not right.

In the middle I hear: Am, Dm, and G and maybe a Bb.

The trouble is I can't hear Bobby or Brent clearly only Jerry, Phil and the drummers

PostPosted: Thu May 11, 2006 11:22 pm
by spilly
fear not, I have played with many variationns of the chords already named, but today my brother turned up with a show featuring GSET and focusing the camera on bobby throughout said part, I intend to watch it untill I get it just right. I'll fill you in when i got it.

P.S. i apologize for al typos and mispellings, I was really hoping my Sabres would sweep the Senators tonight, but alas, I find myself half-drunk and fully disapointed. though in all farness, I knew Ottawa was too good to sweep long before we ever has the chance.

PostPosted: Fri May 12, 2006 5:16 am
by Billbbill
At least you're up 3-1. My Rangers must of had their vacations and golf outings scheduled early cause they didn't show up for the Devils series.

Sigh.

PostPosted: Fri May 12, 2006 6:20 am
by strumminsix
Thanks spilly!

PostPosted: Fri May 12, 2006 9:03 am
by ebick
Billbbill wrote:At least you're up 3-1. My Rangers must of had their vacations and golf outings scheduled early cause they didn't show up for the Devils series.

Sigh.


And my Devils have followed suit and not yet shown up against the Whalers........er 'Canes

PostPosted: Fri May 12, 2006 9:30 am
by shakedown_04092
spilly wrote:fear not, I have played with many variationns of the chords already named, but today my brother turned up with a show featuring GSET and focusing the camera on bobby throughout said part, I intend to watch it untill I get it just right. I'll fill you in when i got it.

P.S. i apologize for al typos and mispellings, I was really hoping my Sabres would sweep the Senators tonight, but alas, I find myself half-drunk and fully disapointed. though in all farness, I knew Ottawa was too good to sweep long before we ever has the chance.



Yeah, Spilly! Way to go! BTW - what video do you speak of? Is it a home video or one I can go buy?

Here's to getting drunk when your team loses! Cheers, mate!

PostPosted: Fri May 12, 2006 6:49 pm
by Billbbill
I tried figuring this out a long time ago listening to the Ace version, I think. Here's what I came up with. Forgive the reliance on notes and the lack of chord citation.

--F---E--F---F---F---E--F---F--Em

e----------------------------------
b-10po9pu10--10--10po9pu10--10--8---
g-10po9pu10--10--10po9pu10--10--9---
d-10po9pu10--10--10po9pu10--10--9--10-10-9--7-7--
a----------------------------------
e----------------------------------

----------------------------C---F--C

e---------------------------8---8--8--
b---------------------------8---10-8---
g---------------------------9---10-9--
d---------------------------10--10-10---
a-10-8-7-5--3-5-3--2--0-2-0-------
e----------------------------------


--F---E--F---F---F---E--F---F--Em

e----------------------------------
b-10po9pu10--10--10po9pu10--10--8---
g-10po9pu10--10--10po9pu10--10--9---
d-10po9pu10--10--10po9pu10--10--9--10-10-9--7-7--
a----------------------------------
e----------------------------------

-----------------------------------------

e----------------------------------
b-------------------------8-8---8---8-8--
g-----------------------7-9-7h9-10po9-7--
d-----------------7-9-10-----------------
a-10-8-7----7-8-10----------------------
e---------10-------------------------


--G-----F---Abm7-Am7

e----------------------------------
b-12-12-10--9-pu-10-----------------------------
g-12-12-10--8-pu-9-----------------------------
d-12-12-10--9-pu-10-----------------------------
a-----------9-pu-10------------------------
e----------------------------------

This seems to differ from what ss has already figured out so maybe I'll sit down with it again myself. Let's see what spilly comes up with with the added visuals.

PostPosted: Fri May 12, 2006 9:24 pm
by spilly
I'm not sure of the name of the DVD, but it's not too new, I'm picking it up tommorow so I'll have some answers soon.

PostPosted: Thu May 18, 2006 10:42 am
by shakedown_04092
spilly wrote:I'm not sure of the name of the DVD, but it's not too new, I'm picking it up tommorow so I'll have some answers soon.


Hey Spilly, not sure if you already mentioned this elsewhere, but now that you have the DVD, what's the name of it? I want to pick it up.

ps - can't wait to see your take on GSET...I've been wanting to play that song for a long time. Thanks again.

PostPosted: Thu May 18, 2006 11:39 am
by spilly
oddly enough, the DVD is Trukin up to Buffalo, you'd think I'd remember that being as thats where I live.

anyways. It doesn't show as much bobby as I thought, but I've watched it through a few times and listened to some of my shows. there are alot of variations, some more complex than others. I'll be working on this for the next few weeks untill I perfect it, I'll give you guys the outline I've worked out for myself now, and I'll update it as I begine picking out variations and substitutions.

I think this sounds pretty good thus far (but theres always room for improvment)

E--------------------------8-7--7--7--7-
B-------10-----------------8-8--8--8--8-
G-9-10-----10-9-10-7-------9-7--7--7--7-
D--------------------10-9-10-9--9--9--9-
A------------------------------10-10-10-
e---------------------------------------

E--------5-5-5-5-5-5-/7---7--7----7--7--8-8--10--8
B--------6-6-6-6-6-6-/8---8--8----8--8--8-8--10--8
G--------5-5-5-5-5-5-/7---7--7----7--7--9-9--10--9
D--9-7-5-7-7-7-7-7-7-/9---9--9----9--9-10-10----10
A-10-8-7-5-5-5-5-5-5-/10-10-10-7h10-10------------
e-------------------------------------------------


E--------------------10--8-7--8-7-7-
A---10-10-9/10-10-10-10--8-7--8-7-7-
G-9-10-10-9/10-10-10-10--9-8--9-8-8-
D---10-10-9/10-10-10----10-9-10-9-9-
A-----------------------------------
e-----------------------------------

E--7--7-5-7-5-5-5-5-5-5--7--7--7----7--7--7-
B--8--8-6-8-6-6-6-6-6-6--8--8--8----8--8--8-
G--7--7-5-9-5-5-5-5-5-5--7--7--7----7--7--7-
D--9--9-7-9-7-7-7-7-7-7--9--9--9----9--9--9-
A-10-10-8-7-5-5-5-5-5-5-10-10-10-7h10-10-10-
e-------------------------------------------

E----------------------
B----------------------
G----------------------
D-12-12-10-9/10--------
A-10-10--8-7/10--------
e-----------/8---------


There you have it, it's not 100% perfect yet, but I think it's pretty damned close. I'll update it as I get more indepth on it. You interetations would be aprechiated also

I hope you guys dig it

PostPosted: Sun Jun 11, 2006 7:02 am
by strumminsix
Thanks everyone. Here's what I've got:

I = CCCCCC G C | Em G | pause | Dm F | C F
II= CCCCCC G C | Em G | pause | Dm F GGG (buildup) | C

PostPosted: Mon Jun 12, 2006 10:51 am
by Billbbill
One refinement from my last take on this after watching the vid. SS and I seem to be somewhat closer together on this now but still some differences.

Edited once again 8/26/06.



I

--F---E--F---F--F--E--F--Dm-F--G--C--C--G--Am
-----sus4---------sus4

e----------------------------------
b-10-10-10--10--10-10-10-10-10-8---
g-10po9h10---X--10po9h10--7--X-7---
d-----------10--------------10-9--10-10--9-10
a---------------------------------10-10-10-12
e----------------------------------

--Am-G-F-Em-Dm-------G--F--C---F--C

e-----------5-5-5-5--7--5--8---8--8--
b-----------6-6-6-6--8--6--8---10-8---
g-----------7-7-7-7--7--5--9---10-9--
d-10—-9-7-5-7-7-7-7--9--7--10--10-10---
a-12-10-8-7-5-5-5-5-10—-8---------
e----------------------------------

II

--F---E--F---F--F--E--F--Dm-F--G--C--C--G--Am
-----sus4---------sus4

e----------------------------------
b-10-10-10--10--10-10-10-10-10-8---
g-10po9h10---X--10po9h10--7--X-7---
d-----------10--------------10-9--10-10--9-10
a---------------------------------10-10-10-12
e----------------------------------


--Am-G-F-Em-Dm---------------Em----F--Em-Dm------

e----------------------------------
b----------------------------8-8---10po8-8--
g--------------------------7-9-7h9-10po9-7--
d-10--9-7-5----------7-9-10-----------------
a-12-10-8-7-5pu7-8-10----------------------
e-------------------------------


--G-----F---Abm7-Am7

e----------------------------------
b-12-12-10--9-pu-10-----------------------------
g-12-12-10--8-pu--9-----------------------------
d-12-12-10--9-pu-10-----------------------------
a-----------------------------------
e----------------------------------

PostPosted: Mon Jun 12, 2006 11:05 am
by strumminsix
Right on bill-squared!

I agree with the rock/slide into the F from E in the begining.
Here is an update while playing with it more:

I = CCCCCC G C | Em G | C F | Dm F | C F
II= CCCCCC G C | Em G | C F | Dm F GGG (buildup) | C

I = CCCCCC G C | Em G | Am F | Dm F | C F
II= CCCCCC G C | Em G | Am F | Dm F GGG (buildup) | C

I = CCCCCC G C | Em G | Am7 F | Dm F | C F
II= CCCCCC G C | Em G | Am7 F | Dm F GGG (buildup) | C


From playing around with a lot of this it seems there is likely more than one way to play it and sound "right".

Where I'm at with the band is worrying about timing and cohesiveness with the bass player while working to create the right rhythm foundation the lead guitarist to does his thing.

Maybe I am over simplifying it a bit but sometimes that's okay.

I'll still keep trying the suggestions out!