How i play Death Don't Have No Mercy

How i play Death Don't Have No Mercy

Postby DudeWithTheFan » Thu Jun 21, 2007 6:56 pm

Just a little input here from a guitar noob, this is how i play death don't have no mercy. I keep the chord progression exactly the same, but add chormatic runs between them, and, IMO, it sounds killer.

Code: Select all
(/) Slide Up  () Slide Down  (h) Hammer On  (p) Pull Off  (b) Bend (r) Release (v) Vibrato

E|--------------------------0--------------3-----------------2--------------------------0--------------------0--------------------2--------------3--------
B|--------------------------0--------------0-----------------0--------------------------0--------------------2--------------------3--------------0--------
G|--------------------------0--------------0-----------------2--------------------------0--------------------2--------------------2--------------0--------
D|-----------------0--1--2--2--------------0-----------------1--------------------------2--------------------2-----------------0--4--------------0--------
A|--------0--1--2-----------2--------------2--------0--1--2--2--2--1--0-----------------2-----------------0--0--0--1--2--3--4--------------------2-----0--
E|--0--3--------------------0--0--1--2--3--3--3--4-----------------------4--3--2--1--0--0--0--1--2--3--4-----------------------------0--1--2--3--3--4-----
   
E|--------2--------------------------0--------------------0--------------------0--------------3--------------2--------------------------0--
B|--------0--------------------------0--------------------1--------------------0--------------0--------------0--------------------------0--
G|--------2--------------------------0--------------------2--------------------0--------------0--------------2--------------------------0--
D|--------1--------------------------2--------------------2--------------------2--------------0--------------1--------------------------2--
A|--1--2--2--2--1--0-----------------2-----------------0-----0-----------------2--------------2-----0--1--2--2--2--1--0-----------------2--
E|--------------------4--3--2--1--0--0--0--1--2--3--4-----------4--3--2--1--0--0--0--1--2--3--3--4-----------------------4--3--2--1--0--0--
                                       


timing is wrong, i just add strums on the chords.
DudeWithTheFan
Rosebud
Rosebud
 
Posts: 35
Joined: Tue Feb 13, 2007 2:18 pm

Postby bodiddley » Fri Jun 22, 2007 6:51 am

Don't know if it's just me, but those tabs don't make any sense at all Why are there three lines of tab per string?
bodiddley
Senior Member
 
Posts: 1042
Joined: Sat Apr 01, 2006 5:22 am
Location: Cleveland, Ohio

Postby Billbbill » Fri Jun 22, 2007 10:23 am

methinks he needs to break it into smaller segments
User avatar
Billbbill
Senior Member
 
Posts: 1780
Joined: Wed Aug 18, 2004 6:44 pm
Location: Southern Westchester NY

Postby Billbbill » Fri Jun 22, 2007 10:34 am

How's this?


(/) Slide Up () Slide Down (h) Hammer On (p) Pull Off (b) Bend (r) Release (v) Vibrato

E|--------------------------0--------------3-----------------2-----------------------
B|--------------------------0--------------0-----------------0-----------------------
G|--------------------------0--------------0-----------------2-----------------------
D|-----------------0--1--2--2--------------0-----------------1-----------------------
A|--------0--1--2-----------2--------------2--------0--1--2--2--2--1--0--------------
E|--0--3--------------------0--0--1--2--3--3--3--4-----------------------4--3--2--1—

E|---0--------------------0--------------------2--------------3--------
B|---0--------------------2--------------------3--------------0--------
G|---0--------------------2--------------------2--------------0--------
D|---2--------------------2-----------------0--4--------------0--------
A|---2-----------------0--0--0--1--2--3--4--------------------2-----0--
E|-0—0--0--1--2--3--4-----------------------------0--1--2--3--3--4-----

E|--------2--------------------------0--------------------0-----------------
B|--------0--------------------------0--------------------1-----------------
G|--------2--------------------------0--------------------2-----------------
D|--------1--------------------------2--------------------2-----------------
A|--1--2--2--2--1--0-----------------2-----------------0-----0--------------
E|--------------------4--3--2--1--0--0--0--1--2--3--4-----------4--3--2--1—

E|---0--------------3--------------2--------------------------0--
B|---0--------------0--------------0--------------------------0--
G|---0--------------0--------------2--------------------------0--
D|---2--------------0--------------1--------------------------2--
A|---2--------------2-----0--1--2--2--2--1--0-----------------2--
E|-0—0--0--1--2--3--3--4-----------------------4--3--2--1--0--0—
User avatar
Billbbill
Senior Member
 
Posts: 1780
Joined: Wed Aug 18, 2004 6:44 pm
Location: Southern Westchester NY


Return to Death Don't Have No Mercy

Who is online

Users browsing this forum: No registered users and 1 guest