Dark Star Lick

Dark Star Lick

Postby qiuniu » Wed Oct 05, 2005 10:50 pm

Code: Select all
Dark Star
gd69-02-05
(Garcia/Hunter)

 Last Updated 05-10-05

A  G      A      G A       G              A     G
Dark star crashes, pouring its light into ashes
A   G  A      G     A      G                   A    G
Reason tatters, the forces tear loose from the axis
A    G       A      G
Search light casting
    A             G         A        G
for faults in the clouds of delusion
A           Asus4  A 
Shall we go,           you and I while can
A      Asus4  A  Tab
Through          the transitive nightfall of diamonds


Mirror shatters in formless reflections of matter
Glass hand dissolving in ice petal flowers revolving
Lady in velvet recedes in the nights of good-bye
Shall we go, you and I while can
Through the transitive nightfall of diamonds
 
Intro
E------------|------------|-----------------------------------
B------------|------------|-----------------------------------
G----------7-|---------7--|-----------------------------------
D---9p8-9----|-9p8-9------|-5h7--5--7--5-----------5-----5-7--
A------------|------------|---------------7-5h7------7--------
E------------|------------|-----------------------------------

E------------------------------------------------------------
B-------------12-------------------------12------------------
G--14--12h14------14--12------14--12h14------14--12----------
D-------------------------14-------------------------14------
A------------------------------------------------------------
E------------------------------------------------------------

Or

E---------------7----------------------7---------------------
B-----10--8h10-----10--8-----10--8h10-----10--8--------------
G-------------------------9----------------------9-----------
D------------------------------------------------------------
A------------------------------------------------------------
E------------------------------------------------------------


I played along with this many, many times to see if I was correct. The main part that I got this from was when Jerry finally played the main lick starting at 1:37 on this particular show.

The second repeat of the lick reappears at 9:32 and the first one I figured out just doesn?t sound right so I started looking for a place lower on the neck to play it and found the second one.
qiuniu
Brent
Brent
 
Posts: 90
Joined: Thu Jun 24, 2004 10:35 pm
Location: Santa Cruz, CA

Return to Dark Star

Who is online

Users browsing this forum: No registered users and 1 guest