Bob's AoxoMoxoA Intro

Bob's AoxoMoxoA Intro

Postby b weird » Fri Dec 26, 2008 6:01 pm

Code: Select all
E|---------------------------------------------------
B|----------12--13p12-----------------12--13p12--15--
G|------12-------------14p12------12-----------------
D|--12------------------------12---------------------
A|---------------------------------------------------
E|---------------------------------------------------

E|--------------------------------------13----------15--17(/19)--
B|----------12--13--12--------------13----------15-------------
G|------12--------------14--12--14----------16-----------------
D|--12---------------------------------------------------------
A|-------------------------------------------------------------
E|-------------------------------------------------------------


It's easiest to play (for me anyway) if you bar the 12th fret at the beginning of the riff. Also the slide to the 19th is optional.

I hope this helps for some.

Peace.
Image
User avatar
b weird
Senior Member
 
Posts: 713
Joined: Sat Apr 01, 2006 8:09 am

Return to China Cat Sunflower

Who is online

Users browsing this forum: No registered users and 1 guest