Casey Jones / Weir

Casey Jones / Weir

Postby Dozin » Tue Mar 01, 2011 12:00 pm

I tabbed out the Rhythm part. I went off the studio album. It's not exact but it gives you a starting place ;)

Casey Jones

Intro:
E|---8-----8-----------------------------|
B|---8h10-8-----------------------------|
G|------------7/5-----------5-7-5---5--|
D|-----------------7---3--7--------7----|
A|----------------------------------------|
E|----------------------------------------|

E|---8------------|--8----1----1----1--|--1---1--1---------------|
B|---8------------|--9----1----1----1--|--1---1--1---------------|
G|---9---8-9-----|--9----3----3----2--|--3---3--2---1h2p-1----|
D|--10-------10--|--9----3----3----3--|--3---3--3------------3--|
A|-----------------|--8------------------|--------------------------|
E|-----------------|----------------------|--------------------------|
C F F C x2

E|---8-----8-----------------------------|
B|---8h10-8-----------------------------|
G|------------7/5-----------5-7-5---5--|
D|-----------------7---3--7--------7----|
A|----------------------------------------|
E|----------------------------------------|

E|-----------------------------------------------------------------------------|
B|-----------------------------------------------------------------------------|
G|---5------------------------------------------------------------------------|
D|---5-----------5--5---7---------7--7----------10--------10---------------|
A|---3----6--7------7---9--8--9-----9---11-12----11-12----10-12-12-9--|
E|------------------------------------------------------------------------------|

E|------------------------------------------------------------------------|
B|---------------------------------------------------------------------8--|
G|------------------------10--7----------9--7--------------7------------|
D|----5-4\5--7-7--5\7----------10--7---------9-6—9\10---9\10-9----|
A|----7-6\7--9-9--7\9--------------------------------------------------|
E|------------------------------------------------------------------------|

SOLO:
E|--------------------------------------------------------------------------|
B|---8----------------------------------10---------10---------------------|
G|---9----------------------------------10---------10---------------------|
D|---7-------5-7-5------7-9-7—9\12--12—9\12—12-----------------9--|
A|-----6-7----------8\9---------------------------------10-12-12-12----|
E|--------------------------------------------------------------------------|

E|---------------------------------------------------------------------------------|
B|---8-------------------------------------------------------------------------8--|
G|---9------------------------------10--7-------9-7--------------7--------------|
D|---7--6-7--5-7-5--8\9--7-9-7---------10-7------9-6--9\10----9\10--9-----|
A|---------------------------------------------------------------------------------|
E|---------------------------------------------------------------------------------|
Image
"If you get confused,...
Listen to the music play"
User avatar
Dozin
Senior Member
 
Posts: 1025
Joined: Thu May 20, 2004 5:27 am
Location: New Hampshire

Return to Casey Jones

Who is online

Users browsing this forum: No registered users and 1 guest