casey jones

Musical Theory Abound!!!

casey jones

Postby BlobWeird » Wed May 24, 2006 7:16 pm

I transcribed this from Closing of Winterland 78. It seems to be fairly accurate. Any mistakes or comments my email is BlobWeird@yahoo.com

As for the strumming pattern and times you play a chord. well i gave up on that but youll hear it and im sure youll figure it out

Intro/Verse Ending/Chorus Ending

E|--8------8--------------------------------
B|--8h10--8--8----8-----------------------
G|-----------7h9--7-----------------------
D|---------------------10-----7--10--10-----
A|-------------------------8----------------
E|------------------------------------------

Verse

E|--8---8---x--8---x--8---x--8---x------------------
B|--8---8---x--8---x--8---x--10--x-----------10-----
G|--9---9---x--9---x--9---x--10--x------------------
D|--10--10--x--10--x--10--x--10--x--7--8h10---------
A|--10--10--x--10--x--10--x--8---x------------------
E|--8---8---x--8---x--8---x------x------------------

E|--8---8---
B|--10--8---
G|--10--9--- Verse Ending
D|--10--10--
A|--8---10--
E|------8---

Bridge?

E|--8---10--8---10--8--------8--10---------10-----
B|--8---10--10--12--8-----------10----------------
G|--9---11--10--12--9---8h9-----11--10h11---------
D|--10--12--10--12--10----------12----------------
A|--10--12--8---10--10----------12----------------
E|--8---10----------8-----------10----------------

E|--8---7--5--3--
B|--10--9--5--3--
G|--10--9--5--4--
D|--10--9--7--5--
A|--8---7--7--5--
E|---------5--3--

Chorus

E|--8---8-------8------------------------------8---
B|--8---10--11--10-----------------------------8---
G|--9---10--10--10---------10--10------10------9---
D|--10--10--12--10---------10--10--12--10------10--
A|--10--8-------8---10h12------------------12--10--
E|--8------------------------------------------8---

Chorus Ending

Bridge 2 same thing except walk it up from C to D
C C x Db x D D D F F F F G G G G C C C C D D D D F F E E Am Am G G

(Chorus)

Solo
----C------------------D
E|--8-------------------------------------
B|--8-------------------------------------
G|--9-------------------------------------
D|--10-----------------------------12-----
A|--10----------10-------------12---------
E|--8---10--12------10--12/14-------------

------F-----------------G

E|--8---------------------------------------
B|--10--------------------------------------
G|--10-------------------------------10-----
D|--10------------10-------------10---------
A|--8---8--10/12------10--12/14-------------
E|------------------------------------------

------C------D

E|--10--8----------------
B|--10--8h9--10--------10--
G|-----------9b---9--7--9b---
D|-----------------------
A|-----------------------
E|-----------------------

F E Am G

E|--15p13p12--13--15--15------------------------
B|------------------------15--15b13--15--13-----
G|----------------------------------------------
D|----------------------------------------------
A|----------------------------------------------
E|----------------------------------------------

E|------------------------------------------
B|------13--15-------------13--15p13--15b---
G|--14----------12h14--14-------------------
D|------------------------------------------
A|------------------------------------------
E|------------------------------------------

E|--15------------------------------15b--15--14--13--
B|------15--15b--15--15b--13--15b--------------------
G|---------------------------------------------------
D|---------------------------------------------------
A|---------------------------------------------------
E|---------------------------------------------------

E|----------------------15-----
B|--15--15p13------15b---------
G|----------------14-------------
D|-------------------------------
A|-------------------------------
E|-------------------------------

E|---------------------------------------
B|--13--15--15b--15p13--------13--13-----
G|------------------------14-------------
D|---------------------------------------
A|---------------------------------------
E|---------------------------------------

(Chorus)

Outro Am D G C

E|-----------------------------------0--
B|-----5--------4--------3--------1--1--
G|-----------------------------------0--
D|--5-----5--4-----4--3-----3--2-----2--
A|-----------------------------------3--
E|--------------------------------------


Sorry about the length and sloppiness and all but umm its all there you just gotta play with it. couldnt exactly get the tab editor to do what i wanted.
User avatar
BlobWeird
Senior Member
 
Posts: 1014
Joined: Sat Apr 01, 2006 11:08 am
Location: Central Jersey

Return to The Think Tank II

Who is online

Users browsing this forum: No registered users and 1 guest