Deleted tab test:

Deleted tab test:

Postby Pete B. » Fri Feb 08, 2008 2:16 pm

Re-posted in Mississippi Halfstep song forum.




(/) Slide Up () Slide Down (h) Hammer On (p) Pull Off (b) Bend (r) Release (v) Vibrato

E|----------------------------------------------4h5--
B|--------------------------------------4h5--8-------
G|-------4--5-------4--5--7--4----5--7---------------
D|--5/7--------7-------------------------------------
A|---------------------------------------------------
E|---------------------------------------------------

E|--7--8--8----8--7--8--7----5-----5--5----5--8--5---
B|------------------------------8--------------------
G|---------------------------------------------------
D|---------------------------------------------------
A|---------------------------------------------------
E|---------------------------------------------------

E|---------------------------------------------------
B|-----------------------------------------------------------12--13-
G|---------9--10--------9--10--12--9----10--12/14----12--14----------14-D|--10h12---------12---------------------------------
A|---------------------------------------------------
E|---------------------------------------------------

E|------------------11----15--14--13--12-------------
B|--12--13--14--15------------------------15--12-----
G|------------------------------------------------13-
D|----------------------------------------------------14--12-------
A|------------------------------------------------------------14--11--
E|---------------------------------------------------



E|---------------------------
B|---------------------------
G|----4--5------4--5--7--4---
D|-7--------7----------------
A|---------------------------
E|---------------------------

E|--------------------------------------
B|-----4h5p4--------4h5p4---------------
G|-5-7-------7-5-4------- 7-5-4----4h5p4
D|--------------------------------------
A|--------------------------------------
E|--------------------------------------

E|---------------------------------------------------
B|---------------------------------------------------
G|---------------------------------------------5-----------7--5--7/9---
D|--7--5--7---------------------------5--6--7-----7--5--7--------------
A|----------------------5--6--7----8-----------------
E|-----------5----7--8-------------------------------

E|----------------------------------------
B|-------------------------8\6-----5\3--1-
G|---------------5------------------------
D|-7p6p5p4---4-7---7-6-7/9-----7\5------2-
A|---------5----------------------------3-
E|----------------------------------------

Wow, it appears that I need to learn how to do Tab!
~pb
Last edited by Pete B. on Sat Feb 09, 2008 10:30 am, edited 22 times in total.
User avatar
Pete B.
Senior Member
 
Posts: 1782
Joined: Mon Jul 23, 2007 9:59 am
Location: Portland, Oregon

Postby paulee » Fri Feb 08, 2008 2:23 pm

im waiting patiently for you to tab out the JUMP FOR JOY smokin hot solo as well!!!!!
paulee
Ice Cream!
Ice Cream!
 
Posts: 116
Joined: Tue Aug 28, 2007 8:05 pm
Location: Graham NC

Postby Tennessee Jedi » Fri Feb 08, 2008 2:36 pm

Pete B-
Waz up?
Cant wait for the vid,man!
Which version are ye gonna transcribe-Steal Yo Face? Without a Net? Wake of the Flood?
Thanks man!
:cool:
User avatar
Tennessee Jedi
Senior Member
 
Posts: 4217
Joined: Mon Oct 08, 2007 6:29 am
Location: Bucks Co.Pa

Postby Pete B. » Fri Feb 08, 2008 3:13 pm

EDIT:
Please let this post sink into oblivion (don't add another post if possible :smile: ).
I will repost in the Mississippi Uptown song forum.
thx,
~pb
Last edited by Pete B. on Sat Feb 09, 2008 10:31 am, edited 1 time in total.
User avatar
Pete B.
Senior Member
 
Posts: 1782
Joined: Mon Jul 23, 2007 9:59 am
Location: Portland, Oregon

Postby nicolasalk » Sat Feb 09, 2008 7:31 am

:shock:

fucking great solo man

incredible

:cool: :smile:
nicolasalk
Jerry
Jerry
 
Posts: 469
Joined: Wed Feb 07, 2007 6:20 pm
Location: Chile


Return to Guitar Tab Creator Comments

Who is online

Users browsing this forum: No registered users and 1 guest