Chind Doll Alternate Tabs

Chind Doll Alternate Tabs

Postby b weird » Sun Jul 02, 2006 4:37 pm

Code: Select all
Intro

E--0h1p0----------------------------------------------------
B---------3--------1----2--3--------------------------------
G------------2---------------0------------------------------
D---------------3-----2--------0-3-2-----------------------
A-----------------------------------------------------------
E-----------------------------------------------------------



Bdim7 Chord


            Bdim7
  |---|---|---|---|---|     E------------------------
  |   |   |   X   |   |     B-----------3-------3----
  |---|---|---|---|---|     G---------1---------1----
  |   X   |   |   |   |     D------3------------3----
  |---|---|---|---|---|     A---2---------------2----
  |   |   X   |   X   |     E------------------------
  |---|---|---|---|---|
  |   |   |   |   |   |
  |---|---|---|---|---|
User avatar
b weird
Senior Member
 
Posts: 713
Joined: Sat Apr 01, 2006 8:09 am

Postby Billbbill » Sun Jul 02, 2006 5:37 pm

Sounds like the studio there, no? Sounds good.

Here's another look

e-----------------------1------
b----3----3----3--------3------
g--2--2-0--0------------2------
d---0----0--3-0-3-2-3-2-0------
a------------------------------
e------------------------------
User avatar
Billbbill
Senior Member
 
Posts: 1780
Joined: Wed Aug 18, 2004 6:44 pm
Location: Southern Westchester NY

Postby tigerstrat » Sun Jul 02, 2006 10:50 pm

E|--------------1--0-------
B|--------3-----------3----
G|-----2-----2-----------2-
D|--0----------------------
A|-------------------------
E|-------------------------(however many times it takes)>>>

E|-----------------------------------------------1--
B|--------3-----------3-----------3--------------3--
G|-----2-----2--0--------0-----0-----0-----0-----2--
D|--0--------------0--------3-----------2--------0--
A|--------------------------------------------0-----
E|--------------------------------------------------

came close to a band breakout of this tune the other night but it veered into GDTRFB, which was good because it turned out to be the closer as it was 230 and the staff were cutting us off. China Doll is no song to close with.
"There, in huge black letters, was 'The Grateful Dead'. It just... cancelled my mind out."-Garcia
User avatar
tigerstrat
Senior Member
 
Posts: 4628
Joined: Wed Nov 30, 2005 1:20 pm
Location: Portland,OR

Postby b weird » Mon Jul 03, 2006 9:23 am

Yes that intro comes from Mars Hotel. Thanks for the other intos too they sound pretty good. Also try the Bdim7 chord instead if the Bo7 chord I think it sounds better.
User avatar
b weird
Senior Member
 
Posts: 713
Joined: Sat Apr 01, 2006 8:09 am

Postby caspersvapors » Mon Jul 03, 2006 2:08 pm

o7 is just another way of saying dim7
User avatar
caspersvapors
Senior Member
 
Posts: 1236
Joined: Fri Mar 03, 2006 1:58 pm

Postby b weird » Mon Jul 03, 2006 2:29 pm

Cool I didn't know that thanks.
User avatar
b weird
Senior Member
 
Posts: 713
Joined: Sat Apr 01, 2006 8:09 am


Return to The Think Tank

Who is online

Users browsing this forum: No registered users and 2 guests