Overseas Stomp (Lindbergh Hop)

Place for the rest of the music

Overseas Stomp (Lindbergh Hop)

Postby HSThompson71 » Mon May 01, 2006 5:45 pm

Overseas Stomp (Lindbergh Hop)
Lyrics: Jab Jones, Will Shade
Music: Jab Jones, Will Shade

This was a Memphis Jug Band tune recorded by Mother McCree's Uptown Jug Champions and was also release on the CD remaster of "The Grateful Dead".

Intro:

E|--------------------------------------
B|--------------------------------------
G|--------------------------------------
D|--3--4--3--4--3--4--0-----------------
A|-----------------------0--3--4--5-----
E|--------------------------------------


C
I know they're gonna run to me
A7
When they get across the sea
D7 G7 C
Every chance to win when Washington lands in France

All safe for now sugar baby

E|--------------
B|--------------
G|--------------
D|--------------
A|0--3--4--5----
E|--------------

C
Oh mama don't you weep and moan
A7
Uncle Sam got your man and gone
D7 G7 C
Now they're doing the Lindy Bird across the sea

E|--------------------------------------
B|--------------------------------------
G|--------------------------------------
D|--3--4--3--4--3--4--0-----------------
A|-----------------------0--3--4--5-----
E|--------------------------------------

C
Oh mama how can it be
A7
You went way across the sea
D7 G7 C
Just to keep from doing that Lindy Bird with me

Oh baby well I done told you now

E|--------------
B|--------------
G|--------------
D|--------------
A|0--3--4--5----
E|--------------

C
You should have seen me with my uniform on
A7
I could Lindy just as sure as you're born
D7 G7 C
And then I'd do that Lindy Bird with you

SOLO

C
I asked her for a piece of banana
A7
She said let me play the blues on your piano
D7 G7 C
And then I'll do that Lindy Bird with you

She said she had a dream about a submarine

E|--------------
B|--------------
G|--------------
D|--------------
A|0--3--4--5----
E|--------------

C
I asked her for a glass of kaola
A7
She said let me play the blues on your victrola
D7 G7 C
And then I'll do the Lindy Bird with you

E|---------------------
B|---------------------
G|---------------------
D|--3--4--3--4--3--4--0
A|---------------------
E|---------------------
HSThompson71
welcome
welcome
 
Posts: 1
Joined: Mon May 01, 2006 5:37 pm

Return to Tune Submissions

Who is online

Users browsing this forum: No registered users and 1 guest