Grateful Dawg

Place for the rest of the music

Grateful Dawg

Postby Crazy 9.5 Fingers » Wed Jul 16, 2008 6:06 pm

I worked on this last year, surprised myself that I actually still remember the lead solo (aka the head) note for note. Now that I think I have the tab creator figured out, here is the intro solo (Jerry's) for the studio cut of Grateful Dawg of "Garcia Grisman"

(/) Slide Up (\) Slide Down (h) Hammer On (p) Pull Off (b) Bend (r) Release (v) Vibrato

E|--5---------------------------------------------------
B|-----8--6--5-----------5-----5--6p5-----5-------5-----
G|--------------7--6--7-----7----------7-----6h7-----7--
D|------------------------------------------------------
A|------------------------------------------------------
E|------------------------------------------------------


E|-----------------------------------------
B|-----------------------------------------
G|--7p5--------5--7p5-----5h6--------------
D|-------7--7----------7-------7--6--7-----
A|-----------------------------------------
E|-----------------------------------------


E|----------------------------------------------------------
B|--8--6p5-----5-------5------------------------------8--6--
G|----------7-----6h7-----7--6p5-----5-------7-----7--------
D|--------------------------------7-----7/8-----8-----------
A|----------------------------------------------------------
E|----------------------------------------------------------


E|---------------------------------------------------------
B|--5------------------------------------------------------
G|-----6-----5--6----------------------------5-------------
D|--------7--------7--5-----5-------5--6--7-----6p5--------
A|-----------------------7-----6h7-------------------8--5--
E|---------------------------------------------------------


E|-----------------------------------------------------8--9h10--8--10p8------8--9-------------
B|-----------------------------5--6-----5h6--6--8--10--------------------10--------10--9--10--
G|--------------------5--6--7--------7--------------------------------------------------------
D|-----------5--6--7--------------------------------------------------------------------------
A|--5--7--8-----------------------------------------------------------------------------------
E|--------------------------------------------------------------------------------------------


E|--10--8--------------------------------------------------------------
B|---------10\8\6-------8--6-------------------------------------------
G|----------------------------7--------------------------------5h6-----
D|-----------------4/5-----------8--7--6\5-------7-------5--7-------7--
A|------------------------------------------6/7-----6-7----------------
E|---------------------------------------------------------------------

E|-----------------------------------
B|-----------------------------------
G|-----6--------6--------------------
D|--7-----7--5-----5-----5-----------
A|--------------------8-----8--7--5--
E|-----------------------------------



Of course one needs to listen to the track for the timing but the notes and whether they are slides, hammers, pull-offs, or picked parts should be close to perfect.

Now that it took me a year to get this up be on the lookout in Summer of '09 for the rest of Jerry's solos in the tune and a video perhaps. Enjoy!
There are only two mantras. Yum and yuk. Mine's yum.
User avatar
Crazy 9.5 Fingers
Senior Member
 
Posts: 777
Joined: Fri Jun 16, 2006 12:14 pm

Return to Tune Submissions

Who is online

Users browsing this forum: Yahoo [Bot] and 1 guest