Sir Duke

Place for the rest of the music

Sir Duke

Postby spilly » Sat Mar 08, 2008 12:27 pm

My buddy just asked me to tab this out and e-mail it him, so I figured as long as I've got it typed up I'll share it with you guys, it's got a really fun run to play and it's really not that difficult


Sir Duke

Intro

E-----------7-----------------------------------------------
B--------7------------------------9---------------------8-7-
G-----8-------------4-3-4---8-7-8-----------4-4--7-6-7------
D---9---------6-6-----------------------5-5-----------------
A-----------------------------------------------------------
e-----------------------------------------------------------

B_______________________Abm
Music is a world within itself
_______G9_____________________F#9
With a language we all understand
B___________________Abm
With an equal opportunity
___________G9__________________________F#9_____F9
For all to sing, dance and clap their hands

____________E9_____Eb9____D9_____Db9
But just because a record has a groove
______D9______Eb9____E9
Don't make it in the groove
____________E9_________Eb9_____D9____Db9
But you can tell right away at letter A
_________D9____Eb9____E9____F9__F#9
When the pe----ople start to move


Chorus

B____________________Fm7
They can feel it all over
E________________Eb______C#m_______F#
They can feel it all over people


lick


E---------------------------------------------------------7---9-10-11---
B---------------------------------------------------7-9--------------------
G------------------------------------4---6-7-8----------------------------
D-------------------6-4------4--6-----------------------------------------
A---------6-4--4---------4------------------------------------------------
e--7--7---------------------------------------------------------------------


E--16-------14-------11--9-7------9-7----7----11--9-7-9-7---7------------
B-------16-------14-----------9-7-----9------------------------9--9-7-9---
G-------------------------------------------------------------------------
D--------------------------------------------------------------------------
A-------------------------------------------------------------------------
e--------------------------------------------------------------------------


E---------------------------------------------
B--7-----7------------------------------------
G-----8-----8--6--8--6--4--6--4---------------
D--------------------------------6-4----------
A---------------------------------------------
e---------------------------------------------

F#9
E-----------------------------7-----7-----------------------
B---------------------7--9------9-----9--7--9--7---7---9-9--
G----------4--6--8-------------------------------8-----9-9--
D--4--6------------------------------------------------8-8--
A------------------------------------------------------9-9--
e------------------------------------------------------------


chord voicings

B- 7-9-9-8-7-7
Abm- X-11-13-13-12-11
Fm7- X-9-11-9-10-9
E- X-7-9-9-9-X
Eb- X-6-8-8-8-X
Cm- 10-12-12-11-10-10
F#- X-10-12-12-12-X
G9- X-10-9-10-10-X (all 9 chords use same fingering)



I hope someone out there will enjoy it
spilly
Bear
Bear
 
Posts: 375
Joined: Tue Dec 06, 2005 12:06 am
Location: Buffalo, NY

Return to Tune Submissions

Who is online

Users browsing this forum: No registered users and 1 guest