Rumble - Link Wray original 1958 bass line

Place for the rest of the music

Rumble - Link Wray original 1958 bass line

Postby desireindisguise » Tue Aug 23, 2011 4:01 pm

E|--------------------------------------------------------------------------------------------
B|--------------------------------------------------------------------------------------------
G|--------------------------------------------------------------------------------------------
D|--------------------0--0--------------------0--0--------------------0--0--------------------
A|--------------------------------------------------0--2--3--4--0--2--------------------------
E|--0--2--3--4--0--2--------0--2--3--4--0--2--------------------------------0--2--3--4--0--2--



E|--------------------------------------------------------------
B|--------------------------------------------------------------
G|--------------------------------------------------------------
D|--0--0-----------------------------------0--0-----------------
A|--------2--1--0-----2--1--0-----------------------------------
E|-----------------4-----------4--3--2--0--------0--2--3--4--0--
desireindisguise
bruce
bruce
 
Posts: 17
Joined: Sat Sep 04, 2010 9:25 am

Re: Rumble - Link Wray original 1958 bass line

Postby desireindisguise » Tue Aug 23, 2011 4:02 pm

just testing to make sure the tab creator thingy still worked.
desireindisguise
bruce
bruce
 
Posts: 17
Joined: Sat Sep 04, 2010 9:25 am

Re: Rumble - Link Wray original 1958 bass line

Postby desireindisguise » Tue Aug 23, 2011 4:06 pm

it's pretty darn close, the turnaround is hard to decipher, but the one i put up there is really close and sounds good. 8)

http://www.youtube.com/watch?v=bjs5QWjvNWc
desireindisguise
bruce
bruce
 
Posts: 17
Joined: Sat Sep 04, 2010 9:25 am


Return to Tune Submissions

Who is online

Users browsing this forum: No registered users and 1 guest