Mandolin: Uncle John's Band

Mandolin: Uncle John's Band

Postby mutant_dan » Fri Jan 20, 2006 10:20 am

Uncle John's Band

From Michael P.Herlihy's TablEdit transcription


E---------------------------------------------------
A-2-2-5-0-0-3-----0-------2-2-5-0---0-2-----0---2-5-
D-------------5-5---4-0-----------4-----5-5---4-----
G-----------------------2---------------------------

E-||-3-0----------------------------------------------
A-||.----5-2-0---2-------------0------2-5-5-3-2-0---2-
D-||.----------5---0-2-0---2-5---5----------------5---
G-||---------------------5----------------------------

E--------------------------------------------0-------
A-----------------3-2-0---------3-2-0----0-0---5-3-2-
D-0-2-0---2-5-5-5-------5-5-2-2-------5-5------------
G-------5--------------------------------------------

E----------------------------||-7-3---3-3-5-3-5-3-3-2-2-3-
A-0---5-3-2-2-0-0-2-0-2-2-2-.||-5-5-5-5-5-3---3-3-5-3-5-2-
D--5------------------5-5-5-.||---------------------------
G----------------------------||---------------------------


E-2-0---0---0-5-3-0-----3-2-2-3-0-------------0--------
A-0---3---3---2-2---5-5-5-5-5---3--5-5-5-5-5-5---3-3-2-
D---5-2-5-2-5-----5-----------5-5--4-------------------
G------------------------------------------------------


E-------------------------------------------------------
A-3-0-0-----0-2-3-2-0-------------2-2---0-2-2-0-0-------
D-------4-5-----------5-2-5-2-5-5-----5-----------5-5-4-
G-------------------------------------------------------

Skipping the 3/4 - 4/4 - 3/4 - 4/4 - 2/4 section:

E-----------------------------------------------
A--3--2--0--2--0-----0--3--2--0--2--0-----0-----
D-----------------5--------------------5--------
G-----------------------------------------------


Timing will need to be worked out on your own as I really can't designate the value of each note in this medium.
mutant_dan
Bobby
Bobby
 
Posts: 352
Joined: Thu Jan 05, 2006 8:20 am

Return to Bluegrass Instruments

Who is online

Users browsing this forum: No registered users and 1 guest