Mandolin: Candyman

Mandolin: Candyman

Postby mutant_dan » Thu Jan 19, 2006 11:37 am

Candy Man Intro from Dead Set

^ = Slide
PO = Pull Off (In this case, 3 finger pull off)

E-----------------------------------------
A-------------------------------------3---
D--------8-8-------7-7---1^2-----1^2-5----
G--4-5-6-------4-5----------5-------------

........................../~PO~\...........
E-------------------------3-2-1-0----------
A--------------------6^8---------7--8^10---
D--------8-8---5-6-7-----------------------
G--4-5-6-----------------------------------


E------------------------------------------
A------------------------------------3-7-3-
D--------8-8-------7-7---1^2-----1^2-------
G--4-5-6-------4-5----------5--------------


E-----------------------------------------
A-----------------------------------------
D--------8-8-------7-7---1^2--------------
G--4-5-6-------4-5----------5-------------

E------------------------------------------
A------------------------------------------
D--2-3-2-0---2-5---------------------------
G----------5-----0---4-0-4--5-4-5--7-6-5-4-


E-----------------------------------------
A-----------------------------------------
D-----------------------------------------
G--0-0-2-0-4-0-5--------------------------



Candyman

Bb.....F.....C
Bb.....F.....C
Bb.....F.....C
Bb.....F.....C....G

......C..............................Gm.................F
Come all you pretty women, with your hair a hanging down,
F.............................................G
Open up your windows ?cause the Candyman's in town.
G................Dm......G...................Dm
Come on boys and gamble, roll those laughing bones,
F............................................G
Seven come eleven, boys I'll take your money home.

Bb.............F.......C
Look out, look out the Candyman,
Bb......F.............C
Here he come and he's gone again.
Am................G
Pretty lady ain't got no friend till,
...F................G
The Candyman comes around again.

I come from Memphis where I learned to talk the jive,
When I get back to Memphis be one less man alive.
Good morning Mr. Benson, I see you're doing well,
If I had me a shotgun I'd blow you straight to hell.

Look out, look out the Candyman,
Here he comes and he's gone again.
Pretty lady ain't got no friend till,
The Candyman comes around again.

Come on boys and wager if you have got the mind,
If you've got a dollar, boys, lay it on the line,
Hand me my old guitar, pass the whiskey round,
Won't you tell everybody you meet that the Candyman's in town.

Look out, look out the Candyman,
Here he comes and he's gone again.
Pretty lady ain't got no friend till,
The Candyman comes around again.

Bb....F

Look out, look out the Candyman,
Here he comes and he's gone again.
Pretty lady ain't got no friend till,
The Candyman comes around again.
mutant_dan
Bobby
Bobby
 
Posts: 352
Joined: Thu Jan 05, 2006 8:20 am

Return to Bluegrass Instruments

Who is online

Users browsing this forum: No registered users and 1 guest