Mandolin: Been All Around This World

Mandolin: Been All Around This World

Postby mutant_dan » Wed Jul 24, 2013 11:05 am

Been All Around This World

E|---------------0-----------------0---------------------------0---------------0-----0----
A|---------------3-----------------3---------------------------3---------------3-----3---
D|-----0h2--5--5--7p5--1h2-----5--0h2--5--7p5--1h2-----5-----0--2--3--5-----5---
G|--5---------------------------5---------------------------5-----5--------------5-------


E|---------0------------------------------------------------0-------0--------0------------
A|--3--5-----5--3h5--3--0--------3--------3--5p3--0----3------3---------3-----------
D|----------------------------5h7-----5h7--------------5--5--2---5--5h7--5--5h7-----
G|-----------------------------------------------------------------------------------------


E|----------------------------------------------0-------------------------------------------0-----
A|---------3-----3-----------------------------3-------------------------------------------3--
D|--5h7-----7-----7--1h2--5--7--5--2-------5--------------0h2--5--1h2-----0--2--3--5--
G|------------------------------------------5-----0--2--4--5-----------------5---------------

The 3 fingered chord is actually a C and can be played in the standard closed C position or simply the 3/5.
mutant_dan
Bobby
Bobby
 
Posts: 353
Joined: Thu Jan 05, 2006 8:20 am

Return to Bluegrass Instruments

Who is online

Users browsing this forum: No registered users and 1 guest