Mandolin: Little Sadie

Mandolin: Little Sadie

Postby mutant_dan » Wed Jul 24, 2013 7:39 am

Little Sadie (Dm F C Am)
E|----------------------------------------------------------------------------
A|--0-----0--3--5--3--0---------------------------0------------------------
D|-----5-------------------5--3--0----2--0--2--5-----5--2--0-------------
G|----------------------------------------------------------------5--2------


E|------------------------------------------------------------------------------
A|--------------------------------0-----0--1--0-------------------------------
D|-----------------------------------5-----------5--3--2--0--3--2-----0-----
G|--2h5-----5-- 2h5----5------------------------------------------5--------
mutant_dan
Bobby
Bobby
 
Posts: 352
Joined: Thu Jan 05, 2006 8:20 am

Return to Bluegrass Instruments

Who is online

Users browsing this forum: No registered users and 1 guest