Mandolin: Ripple

Mandolin: Ripple

Postby mutant_dan » Thu Oct 25, 2012 1:19 pm

Verse Melody:
.................G.....................C..............................G
E||-------------3-3--------------------------------------------------3-3--||
A||-------------2-2----2-0-2--------3----------0-------------------2-2--||
D||---------0---0-5--5-------5-0^2-2--0^2-5---5--0^2-5--5-2-0-0-5--||
G||--4-4-5-----0-0-0----------------5------------------------------0-0--||

...................G...................C................D................G
E||---------------3-3----------------------------------------------------3-3--||
A||---------------2-2----2-0-2-3----3-3-3---2-2-3-0------------0----2-2--||
D||---------0----0-5--5------------2-2-2-2-------------2^5-5-5---5--0-5--||
G||--4-4-5----0-0-0-----------------0-5-5-----------------------------0-0--||


Chorus Melody:
......Am............D..........G.....C.....A7.....D
E||--5~--3-5-3--5-2-0----0-2-3-5-3---0--3-3-0------||
A||-----------------------5------------5-----------2-5--||
D||-------------------------------------------------------||
G||-------------------------------------------------------||
mutant_dan
Bobby
Bobby
 
Posts: 352
Joined: Thu Jan 05, 2006 8:20 am

Return to Bluegrass Instruments

Who is online

Users browsing this forum: No registered users and 1 guest