Mandolin: Shady Grove

Mandolin: Shady Grove

Postby mutant_dan » Wed Jul 24, 2013 11:42 am

Shady Grove

The 5h7 hammer ons also sound really nice if you do a 5s7 (slide up from 5 to 7).
It gives the passage a banjo like feel.

E|-----------------------------------------------------------------------------------------------
A|------------------------------------------------------------------------------0-----0--0--0--
D|---------0-----------0--2--0-------------------------0--0--2--3--5--5h7-----7------------
G|--5h7------7--7--7-----------4--5--5--5--5--5h7------------------------------------------


E|---------------------------------------------------------------------------------------------------
A|--0h3--3--3--0--0--0-----0--------------------------------0------------------------------------
D|-------------------------5-----5--2---------0--0--2--5--0-----5--2------0--0--0-----0--0--0--
G|---------------------------------------5--5----------------------------5--------------------------

E|---------------------------------------------------------------------------------------
A|-------------------------0------------------------------------------------0--0--0---
D|--------0--0--0--0--5-----5--2----------------------0--2--3--5--5h7--------------
G|--5h7----------------------------5--5--5--5h7--7-----------------------------------


E|-----------------------------------------------------------------------------12(harmonic)-------
A|--0--3--3--3--0--0-----0---------------------------------0----------------------12(harmonic)-
D|----------------------5-----5--2--5--2------0--2--5--0------5--2-----0--------------------------
G|-----------------------------------------5-5-------------------------5-----------------------------
Last edited by mutant_dan on Thu Jul 25, 2013 12:10 pm, edited 1 time in total.
mutant_dan
Bobby
Bobby
 
Posts: 352
Joined: Thu Jan 05, 2006 8:20 am

Return to Bluegrass Instruments

Who is online

Users browsing this forum: No registered users and 1 guest