WRS Prelude

WRS Prelude

Postby jhc » Sun Jan 09, 2005 7:15 pm

Has anyone here gone through this? I think the tab on rukind might be partially incorrect/incomplete. I haven't gone through it wnough to propose an alternate version, but playing along with some live '73-'74 versions it seems like it's spot on through this part

E------7--------5-------------------------------------------
B------7h8p7-------7---5---3---5---7---3--------------------
G------------9--5-------------------------------------------
D------------------7---5---4---5---7---4--------------------
A-----------------------------------------------------------
E-(7)-------------------------------------------------------

E--------------------
B--------------------
G------5--4--5--7--7-
D---7--------------9-
A------7--5--7--9----
E------------------7-

but the rest of this line doesn't work.

As far as I can tell the C - G - Am section and following parts are right. I'll post more when if I can figure out what I think I'm hearing, but was just wondering if anyone else has come across this.

Thanks
jhc
Keith
Keith
 
Posts: 63
Joined: Tue Oct 05, 2004 7:01 pm
Location: Chicago

Postby ebick » Sun Jan 09, 2005 8:38 pm

I can't "warranty" it against live versions, the tab is based on the Wake Of The Flood version.

Do you believe it to be incorrect against that?
User avatar
ebick
Senior Member
 
Posts: 1156
Joined: Tue May 11, 2004 7:34 am
Location: Orlando, FL

Postby jhc » Mon Jan 10, 2005 11:24 am

Can't say for 100% sure, but I think the live versions are the same as the album version. I need to go through it some more however...
jhc
Keith
Keith
 
Posts: 63
Joined: Tue Oct 05, 2004 7:01 pm
Location: Chicago

Postby jhc » Wed Jan 12, 2005 9:31 am

OK, after going through this more carefully (on the album this time), I'll propose a very small change - here's the tab with the chord names included for reference

------------------"phrase 1"

--------Em-----Am--D---C---Bm--C---D---Bm

E------7--------5-------------------------------------------
B------7h8p7-------7---5---3---5---7---3--------------------
G------------9--5-------------------------------------------
D------------------7---5---4---5---7---4--------------------
A-----------------------------------------------------------
E-(7)-------------------------------------------------------

--------"phrase 2"-------"phrase 3"
-------Am-G-Am-Bm--G------B--A--B-----Em

E-------------------------------------------7--7--7-----7---
B-------------------------------------------8--8--8-----8---
G------5--4--5--7--7------8--6--8------9----9--9--9-----9--
D---7--------------9-------------------9--------------------
A------7--5--7--9------7--10-8--10-----7--7-----------7-----
E------------------7---------------7------------------------

The only correction I'll propose is the vocing of the B-A-B part in the 3rd phrase. I don't think it's exactly right (I think I hear Bob hammering on somewhere) but I'm pretty sure I hear that D# on the 4th string/8th fret.

I think it's also an acceptable variation to voice the 2nd G in the 2nd phrase as x-x-4-x-5-x instead of x-x-7-9-x-7 but I'm not saying it's incorrect as previously written.

It was also a revelation to me that after I took the two minutes to identify all the chords used, it was much easier to finger the phrase 2 and 3 using the full barre chord fingerings. (phrase 1 was a little awkward for me that way).

Comments?

[edit: sorry about all the dashes - it was the only way I could align the chord names with the rest of the tab]
jhc
Keith
Keith
 
Posts: 63
Joined: Tue Oct 05, 2004 7:01 pm
Location: Chicago

Re: WRS Prelude - New Vid

Postby ebick » Tue Jun 25, 2013 1:12 pm

I have revisited this piece.



Code: Select all
(/) Slide Up  (\) Slide Down  (h) Hammer On  (p) Pull Off  (b) Bend (r) Release (v) Vibrato

                                                                                    Em

E|-----7---------5--------------2------------------------------------------------------------
B|-----7h8p7--------7--5--3--5-----3---------1--0--1--3--0---------4--4--4-------5--5--5--5--
G|------------9--7-------------------------------------------------4--2--2h4-----4--4--4--4--
D|---------------------5--4--5-----4------2-----------------------------------2-----2--2--2--
A|--------------------------------------------------------------2----------------------------
E|-(7)---------------------------------------------------3-----------------------------------

E|-----7---------5--------------2------------------------------------------------------------
B|-----7h8p7--------7--5--3--5-----3---------1--0--1--3--0---------4--4--4-------5--5--5--5--
G|------------9--7-------------------------------------------------4--2--2h4-----4--4--4--4--
D|---------------------5--4--5-----4------2-----------------------------------2-----2--2--2--
A|--------------------------------------------------------------2----------------------------
E|-(7)---------------------------------------------------3-----------------------------------

    C        G       Am                   G  Bm

E|----------------------------------------3--2--------
B|--1--------3--1p0--1------1p0-----------0--3--1-----
G|--------0----------2-----------2--0--2--0--4--------
D|-----2----------------------------------0--4--------
A|--3--------2-------0--------------------2--2--------
E|----------------------------------------3-----------

    Em                       F                  Em    G        C  G

E|--0------------------------1------------------0-----3--------0--3--
B|--0------------------------1------------------0-----0--------1--0--
G|--0----------4p2--0--------2----2p0-----0--2--0-----0--------0--0--
D|--2--2/4--5----------4--2--3---------3--------2-----0--------2--0--
A|--2------------------------3------------------2-----2--------3--2--
E|--0-------------------------------------------0--2--3-----------3--

    G     Dsus4      Dm    G7                Am/F#

E|--3--3--3p2-----0--1-----1--1--1p0---------0--------
B|-------------3--------3--------------1--3-----1-----
G|-------------------------------------------------2--
D|--------0----------0--------------------------------
A|--2--3----------------------0--2-----0--2-----------
E|-------------------------3-----------------------2--
 
       B7          Em         C#7         F#m            C#7        F#m        E
 
E|-----------------0----------------------2-------------------------2----------0--
B|--1--0--------0--0----0--3--2--------2--2----2h3p2-----2--2h3--5--2--2h3--5--0--
G|--------2--------0-------------4--------2-----------4--4----------2----------1--
D|-----------1-----2----------------3-----4-------------------------4----------2--
A|-----------------2----------4-----------4--------------4----------4----------2--
E|-----------------0----------------------2-------------------------2----------0--

    A  E  A  E

E|--5--0--5--0--
B|--2--0--2--0--
G|--2--1--2--1--
D|--2--2--2--2--
A|--0--2--0--2--
E|-----0-----0--
      
Ed

First Show - 5/5/77
Last Show - 3/28/93
User avatar
ebick
Senior Member
 
Posts: 1156
Joined: Tue May 11, 2004 7:34 am
Location: Orlando, FL

Re: WRS Prelude

Postby NWPines » Tue Jun 25, 2013 1:23 pm

Very nice!!!!
NWPines
Brent
Brent
 
Posts: 88
Joined: Fri May 28, 2010 3:48 pm
Location: Corvallis, OR


Return to Weather Report Suite

Who is online

Users browsing this forum: No registered users and 1 guest