A bunch of licks

A bunch of licks

Postby BlobWeird » Sun Jan 07, 2007 12:46 pm

I was just veiwin some of the forum discussion for this and I know a fast version lick and the slower version (which differs a little from the one on here) so I figured id post em here. Here is the intros:

E|----------------------------|--------------------------------
B|----------------------------|--------------------------------
G|----------------------------|--------------------------------
D|-----5-----5--5----------5--|-----5-----5--5-----55----------
A|--------------------5/7-----|--------5--------5-------7------
E|--3-----3--------3----------|--3-----------------------------

If you want a version to listen to of the above lick then the only one I know is from Dark Star Orchestra. You can find it on archive.org the date is 5-8-06.

And now the faster version:

E|------------------------------5--6--7--|---------------------3-----------|-----
B|---------------------------------------|---------------------------------|-----
G|------------------------------5--6--7--|---------------------------5-----|-----
D|--5---------5---------5----------------|-----5-------5----5-----5-----5--|-----
A|---------------------------------------|---------------------------------|-----
E|-----3---------3---------3-------------|--3-------3----------------------|-----

Ok so as for the 5 3 5 3 5 3 part in the beginning your gonna strike the 3 immediately after the 5 to give you a sort of delayed octave sound. If you want a version of this intro to listen to then get DP 18 or try to find 2-3-78 (Same thing as DP18). Here is a prechorus lick:

E|---------------------
B|---------------8-----
G|---------------------
D|-------5--7/9--------
A|--5/7----------------
E|---------------------

And here is a Chorus lick for ya:

E|----------------------------------------------------5--6--7--
B|-------------------------------------------------------------
G|----------------------------------------------------5--6--7--
D|-------------------------------------5-----5-----5-----------
A|----------3----3----5--3-------------------------------------
E|--1--3/5------------------5--3----3-----3-----3--------------


E|--------------------------------------------5--6--7--
B|-----------------------------------------------------
G|--------------------------------------------5--6--7--
D|-----------------------5-----5-----5-----5-----------
A|----------3----3--5/7--------------------------------
E|--1--3/5------------------3-----3-----3--------------


I also have the solo to DP18 so yeah email me: Blobweird@yahoo.com if ya want it.
User avatar
BlobWeird
Senior Member
 
Posts: 1014
Joined: Sat Apr 01, 2006 11:08 am
Location: Central Jersey

Postby LazyLightnin » Tue Mar 06, 2007 4:52 am

wow thanks man 8)
LazyLightnin
 


Return to They love each other

Who is online

Users browsing this forum: No registered users and 1 guest