***Correct Tennessee Jed Intro***

***Correct Tennessee Jed Intro***

Postby captain_trip » Wed Jul 21, 2004 11:43 am

|-------------------------------------------------------------|

|-------------------------------------------------------------|

|--7^7--5---------------------------------------------------|

|-----------7-------------------------------------------------|

|-------------5^5--3--------3-------3-----3----3--5^------|

|-------------------------/5-------5-----5-----5-------------|

On The 1st 2 bends, bend then when you are at the bottom of the bend hit the note again, then bring the string back into place. listen to the song and you will see..

|-----------------------------|

|-----------------------------|

|--------------5--------------|

|---------5-------------------|

|--5/7------------------------|

|------------------------------|
captain_trip
 

Return to Tennessee Jed

Who is online

Users browsing this forum: No registered users and 1 guest