A couple minor changes to the intro

A couple minor changes to the intro

Postby strumminsix » Wed Jun 15, 2005 3:36 pm

I get to finally give back to a site that means so much!

E----------------------------------------10--9--------------
B----------------------9--10--12--10--9---------10--12--12--
G--11--11---------------------------------------------------
D-----------------------------------------------------------
A-----------------------------------------------------------
E-----------------------------------------------------------

E-----------------------------10--9------11--11-------------
B-----------9--10--12--10--9---------10---------------------
G-----------------------------------------------------------
D-----------------------------------------------------------
A-----------------------------------------------------------
E-----------------------------------------------------------

E-----------9--10--12--10--9--10--9------12--12-------------
B------------------------------------12---------------------
G-----------------------------------------------------------
D-----------------------------------------------------------
A-----------------------------------------------------------
E-----------------------------------------------------------

E---------10----9--10--9------------------------------------
B-------------------------12--12--10--9---10--9-------------
G------------------------------------------------11--9------
D-----------------------------------------------------------
A-----------------------------------------------------------
E-----------------------------------------------------------
User avatar
strumminsix
Senior Member
 
Posts: 6655
Joined: Tue Apr 05, 2005 8:13 am
Location: Chicago

Return to St. Stephen

Who is online

Users browsing this forum: No registered users and 1 guest