Scarlet Begonias

Bridge

(^) Slide Up  (\) Slide Down  (h) Hammer On  (p) Pull Off  (b) Bend

MP3 Tab Support Audio (33K)

MIDI Tab Support Audio (scarlet3.mid)

           E                        F#
E---------------------------------------------------------------------
B---------------------------------------------------------------------
G---------------------------------------------------------------------
D--------------------------------2-----------------------4------------
A-----------------------2-2--4------------------4-4--6----------------
E------------0----2--4----------------2---4--6------------------------


    A                     B
E --------------------------------------------------------------------
B ---------------------------------------------------------------12-10
G ---------------------------------------------------------11-11------
D --------------------7----------------------9----9--11--13-----------
A ------------7-7--9-----------------9-9--11--------------------------
E --5---7--9--------------7---9--11-----------------------------------