Jack Straw

Intro

Back to rukind

Jerry

E 
e------------------------------ 
b-9----------------------------- 
g--11-9--------------------------- 
d------11-9-11-9--------------------- 
a---------------12-11-------------- 
e------------------------------

bobby

--E 
e------------------------------ 
b------------------------------ 
g--4---------------------------- 
d----7-6-4-6h7-4h6-------------- 
a------------------7------------ 
e------------------------------