Help On The Way

Intro

(^) Slide Up  (\) Slide Down  (h) Hammer On  (p) Pull Off  (b) Bend

MP3 Tab Support Audio (0K)

MIDI Tab Support Audio (help1.mid)

The odd bars (with the Fm chord) are the guitar part.  The even bars are
Phil's bass line.


E---8---8-------8---8---------------------------------------
B---9---9-------9---9---------------------------------------
G---10--10------10--10--------------------------------------
D---10--10------10--10--------------------------------------
A---8---8-------8---8---------------------------------------
E-----------------------------------------------------------

E----------------------------------------------------------
B----------------------------------------------------------
G----------------------------------------------------------
D-------------------------------------------6p5------------
A-----------------------6h8--6-----------8-------8---------
E-------------------6h8----------8--6h8--------------------

E---8---8-------8---8---------------------------------------
B---9---9-------9---9---------------------------------------
G---10--10------10--10--------------------------------------
D---10--10------10--10--------------------------------------
A---8---8-------8---8---------------------------------------
E-----------------------------------------------------------

E----------------------------------------------------------
B----------------------------------------------------------
G----------------------------------------------------------
D----------------------------------------------------------
A-----------------------6h8--6---5-----3p1----4------------
E-------------------6h8------------------------------------

E---8---8-------8---8---------------------------------------
B---9---9-------9---9---------------------------------------
G---10--10------10--10--------------------------------------
D---10--10------10--10--------------------------------------
A---8---8-------8---8---------------------------------------
E-----------------------------------------------------------

E-----------------------------------------------------------
B-----------------------------------------------------------
G------------------------8h10-8-----------10--13p12--10-----
D-------------------8h10---------10-8h10--------------------
A-----------------------------------------------------------
E-----------------------------------------------------------

E---8---8-------8---8---------------------------------------
B---9---9-------9---9---------------------------------------
G---10--10------10--10--------------------------------------
D---10--10------10--10--------------------------------------
A---8---8-------8---8---------------------------------------
E-----------------------------------------------------------

E-----------------------------------------------------------
B-----------------------------------------------------------
G------------------------8h10-8--7--5p3--6------------------
D-------------------8h10------------------------------------
A-----------------------------------------------------------
E-----------------------------------------------------------