China Cat

Bridge Solo

(^) Slide Up  (\) Slide Down  (h) Hammer On  (p) Pull Off  (b) Bend

MP3 Tab Support Audio (50K)

MIDI Tab Support Audio (chinaca3.mid)

At this point, the whole tune modulates from G to E.  Play
Bob's intro part starting on Fret 9 of the B string.

E-----------------------|-----9-10p9------------------------
B----------9----9-10-12-|-12---------12--10-12p10-9---------
G---9-9h11---11---------|----------------------------11-----
D-----------------------|-----------------------------------
A-----------------------|-----------------------------------
E-----------------------|-----------------------------------

E-----------------------------------------------------------
B------------10--9------------------------------------------
G--9-9-11-11-------11--9------9--11-------------------------
D-------------------------12---------10---------------------
A-----------------------------------------------------------
E-----------------------------------------------------------

E--------|-----------------------------|-----9-10p9---------
B--------|------------9------9--10--12-|--12---------12--10-
G-9h11-9-|--9--9--11-----11------------|--------------------
D--------|-----------------------------|--------------------
A--------|-----------------------------|--------------------
E--------|-----------------------------|--------------------

E-----------------------------------------------------------
B--12--10--9--------------------10--9-----------------------
G-------------11--9--9--11--11---------11--9-----9h11--9----
D--------------------------------------------12-------------
A-----------------------------------------------------------
E-----------------------------------------------------------