China Cat

Bob Intro and Verse Intro- BillbBill

E-----------------------------------------------------13
B---12-13p-12--------12h13-15-15---12-13p-12-----12s13--
G-12---------14-12-12-----------12----------14-12-------
D-------------------------------------------------------
A-------------------------------------------------------
E-------------------------------------------------------


E----15h17-19-------
B-15----------------
G-------------------
D-------------------
A-------------------
E-------------------


E-----------------------------------------------------13
B---12-13p-12--------12h13-15-15---12-13p-12-----12s13--
G-12---------14-12-12-----------12----------14-12-------
D-------------------------------------------------------
A-------------------------------------------------------
E-------------------------------------------------------


E----15h17-15-------
B-15----------------
G-------------------
D-------------------
A-------------------
E-------------------


Upon further review I've come around to the threads conventional view on the 3 note arpeggio over the F. On the other hand I still don't hear the B note of the G chord (the 16 on the G string). It certainly works, but I don't hear it on the live versions I've given a close listen to.

On the Downhill from Here vid you get a good look and Bob does simply move up two frets and keep the same fingering from the F to the G. I just can't hear him hitting the B note.

Anyway enough of that. Here's my newest take with that B in parentheses


E-------------------------------------------------------13
B---(12)-13p-12--------12h13-15-15---12-13p-12--------13--
G-(12)---------14-12-12-----------12----------14-12-14------
D-------------------------------------------------------
A-------------------------------------------------------
E-------------------------------------------------------


E------15h17-19-------
B----15----------------
G-(16)------------------
D-------------------
A-------------------
E-------------------


E-------------------------------------------------------13
B---(12)-13p-12--------12h13-15-15---12-13p-12--------13--
G-(12)---------14-12-12-----------12----------14-12-14------
D-------------------------------------------------------
A-------------------------------------------------------
E-------------------------------------------------------

E------15h17-15-------
B----15----------------
G-(16)-----------------
D-------------------
A-------------------
E-------------------